Yonder Mountain String Band – Idaho Tab

March 20th, 2008 by Greg Goodson Leave a reply »
  • SumoMe

I am going to begin keeping some of my very own tabbed out songs on the blog. All of the tabs will be bluegrass related (most of which will probably be Yonder Mountain String Band… surprise!). If you have any questions regarding the tabs or any corrections, please don’t hesitate to ask! I will accompany these tabs with my homemade videos from YouTube 🙂

First up… never before available on the internet – the guitar solo from “Idaho” off of YMSB’s album “Town by Town”

——————————————————————————-
Yonder Mountain String Band – Idaho Guitar Tab Solo
——————————————————————————-
Tabbed by: Greg Goodson @ GregGoodson.com
Email: gtg033g@mail.gatech.edu

Standard Tuning

Here is the guitar solo for YMSB’s song “Idaho”. I am sure that this solo is improvised a lot when played live as well – this is only for the studio album solo. If you would like to improvise, the backing chords are Em-C-D – the solo is played all in Em.

e|-------|----------------------|---------------------------------------------|
B|-------|-----7h8p7------------|-------7-8-10-8-7-10-8-7---8-7-----7---------|
G|-----7-|-9----------7-9-------|-------------------------9-----9-7---9-7-----|
D|--/9---|----------------------|-----------------------------------------9---|
A|-------|----------------------|---------------------------------------------|
E|-------|----------------------|---------------------------------------------|

e|------------------------------|---------------------------------------------|
B|------------------------------|---------------------------------------------|
G|-7h9-9--9--9-9-9--7----5------|--4h5ph---4----------------------------------|
D|------------------------------|--------7---7-5-4-5-7-5-4--------------------|
A|------------------------------|--------------------------7-5----------------|
E|------------------------------|------------------------------5-6-7----------|

e|--------------7-10-7----------|----7h8p7----7-------------------------------|
B|------------8--------8--------|----------10---10-8-7---8-7---7--------------|
G|----------9------------9------|----------------------9-----9---9-7----------|
D|-------9----------------------|------------------------------------9--------|
A|------------------------------|---------------------------------------------|
E|--0---------------------------|---------------------------------------------|

e|------------------------------|---------------------------------------------|
B|-----------7-8-7--------------|----------1----1--------3-----3--------------|
G|-7h9-9-9---------9--7\--------|-------0-----0--------0---0-----0------------|
D|------------------------------|---0h2------------2/4-------4----------------|
A|------------------------------|---------------------------------------------|
E|------------------------------|---------------------------------------------|

e|------------------------------|---------------------------------------------|
B|------------------------------|---------------------------------------------|
G|-----------------0------------|---------------------------------------------|
D|-----------0-2-0--------------|---------------------------------------------|
A|-----0-1-2--------------------|---------------------------------------------|
E|--3---------------------------|---------------------------------------------|


Hope it helped!

Advertisement

Leave a Reply